ISO-10303-21;
HEADER;
/* Generated by software containing ST-Developer
 * from STEP Tools, Inc. (www.steptools.com) 
 */
/* OPTION: using custom schema-name function */

FILE_DESCRIPTION(
/* description */ (''),
/* implementation_level */ '2;1');

FILE_NAME(
/* name */ '100740368ugm000_a.stp',
/* time_stamp */ '2017-09-26T12:27:39+02:00',
/* author */ (''),
/* organization */ (''),
/* preprocessor_version */ 'ST-DEVELOPER v16',
/* originating_system */ 'SIEMENS PLM Software NX 10.0',
/* authorisation */ '');

FILE_SCHEMA (('AUTOMOTIVE_DESIGN { 1 0 10303 214 3 1 1 1 }'));
ENDSEC;

DATA;
#10=GEOMETRICALLY_BOUNDED_WIREFRAME_SHAPE_REPRESENTATION(
'100740368ugm000_a-None',(#33),#516);
#11=PROPERTY_DEFINITION_REPRESENTATION(#15,#13);
#12=PROPERTY_DEFINITION_REPRESENTATION(#16,#14);
#13=REPRESENTATION('',(#17),#516);
#14=REPRESENTATION('',(#18),#516);
#15=PROPERTY_DEFINITION('pmi validation property','',#23);
#16=PROPERTY_DEFINITION('pmi validation property','',#23);
#17=VALUE_REPRESENTATION_ITEM('number of annotations',COUNT_MEASURE(0.));
#18=VALUE_REPRESENTATION_ITEM('number of views',COUNT_MEASURE(0.));
#19=SHAPE_REPRESENTATION_RELATIONSHIP('None',
'relationship between 100740368ugm000_a-None and 100740368ugm000_a-Non
e',#32,#21);
#20=SHAPE_REPRESENTATION_RELATIONSHIP('None',
'relationship between 100740368ugm000_a-None and 100740368ugm000_a-Non
e',#32,#10);
#21=ADVANCED_BREP_SHAPE_REPRESENTATION('100740368ugm000_a-None',(#39),#516);
#22=SHAPE_DEFINITION_REPRESENTATION(#23,#32);
#23=PRODUCT_DEFINITION_SHAPE('','',#24);
#24=PRODUCT_DEFINITION(' ','',#26,#25);
#25=PRODUCT_DEFINITION_CONTEXT('part definition',#31,'design');
#26=PRODUCT_DEFINITION_FORMATION_WITH_SPECIFIED_SOURCE(' ',' ',#28,
 .NOT_KNOWN.);
#27=PRODUCT_RELATED_PRODUCT_CATEGORY('part','',(#28));
#28=PRODUCT('100740368ugm000_a','100740368ugm000_a',' ',(#29));
#29=PRODUCT_CONTEXT(' ',#31,'mechanical');
#30=APPLICATION_PROTOCOL_DEFINITION('international standard',
'automotive_design',2010,#31);
#31=APPLICATION_CONTEXT(
'core data for automotive mechanical design processes');
#32=SHAPE_REPRESENTATION('100740368ugm000_a-None',(#320),#516);
#33=GEOMETRIC_CURVE_SET('None',(#435));
#34=SURFACE_STYLE_USAGE(.BOTH.,#35);
#35=SURFACE_SIDE_STYLE('',(#36));
#36=SURFACE_STYLE_FILL_AREA(#37);
#37=FILL_AREA_STYLE('',(#38));
#38=FILL_AREA_STYLE_COLOUR('',#319);
#39=MANIFOLD_SOLID_BREP('',#40);
#40=CLOSED_SHELL('',(#60,#61,#62,#63,#64,#65,#66,#67,#68,#69,#70,#71,#72,
#73,#74));
#41=CYLINDRICAL_SURFACE('',#331,13.2500000000024);
#42=CYLINDRICAL_SURFACE('',#334,13.2500000000006);
#43=CYLINDRICAL_SURFACE('',#337,13.2500000000005);
#44=CYLINDRICAL_SURFACE('',#340,13.2499999999981);
#45=CYLINDRICAL_SURFACE('',#343,13.2500000000002);
#46=CYLINDRICAL_SURFACE('',#346,13.2500000000014);
#47=CYLINDRICAL_SURFACE('',#349,9.19000000000001);
#48=FACE_OUTER_BOUND('',#139,.T.);
#49=FACE_OUTER_BOUND('',#140,.T.);
#50=FACE_OUTER_BOUND('',#141,.T.);
#51=FACE_OUTER_BOUND('',#142,.T.);
#52=FACE_OUTER_BOUND('',#143,.T.);
#53=FACE_OUTER_BOUND('',#144,.T.);
#54=FACE_OUTER_BOUND('',#145,.T.);
#55=FACE_OUTER_BOUND('',#146,.T.);
#56=FACE_OUTER_BOUND('',#147,.T.);
#57=FACE_OUTER_BOUND('',#148,.T.);
#58=FACE_OUTER_BOUND('',#149,.T.);
#59=FACE_OUTER_BOUND('',#150,.T.);
#60=ADVANCED_FACE('',(#131,#132),#75,.T.);
#61=ADVANCED_FACE('',(#48),#76,.T.);
#62=ADVANCED_FACE('',(#49),#41,.T.);
#63=ADVANCED_FACE('',(#50),#77,.T.);
#64=ADVANCED_FACE('',(#51),#42,.T.);
#65=ADVANCED_FACE('',(#52),#78,.T.);
#66=ADVANCED_FACE('',(#53),#43,.T.);
#67=ADVANCED_FACE('',(#54),#79,.T.);
#68=ADVANCED_FACE('',(#55),#44,.T.);
#69=ADVANCED_FACE('',(#56),#80,.T.);
#70=ADVANCED_FACE('',(#57),#45,.T.);
#71=ADVANCED_FACE('',(#58),#81,.T.);
#72=ADVANCED_FACE('',(#59),#46,.T.);
#73=ADVANCED_FACE('',(#133,#134),#82,.T.);
#74=ADVANCED_FACE('',(#135,#136),#47,.F.);
#75=PLANE('',#328);
#76=PLANE('',#329);
#77=PLANE('',#332);
#78=PLANE('',#335);
#79=PLANE('',#338);
#80=PLANE('',#341);
#81=PLANE('',#344);
#82=PLANE('',#348);
#83=LINE('',#438,#107);
#84=LINE('',#443,#108);
#85=LINE('',#447,#109);
#86=LINE('',#451,#110);
#87=LINE('',#455,#111);
#88=LINE('',#459,#112);
#89=LINE('',#463,#113);
#90=LINE('',#466,#114);
#91=LINE('',#467,#115);
#92=LINE('',#471,#116);
#93=LINE('',#473,#117);
#94=LINE('',#475,#118);
#95=LINE('',#479,#119);
#96=LINE('',#481,#120);
#97=LINE('',#483,#121);
#98=LINE('',#487,#122);
#99=LINE('',#489,#123);
#100=LINE('',#491,#124);
#101=LINE('',#495,#125);
#102=LINE('',#497,#126);
#103=LINE('',#499,#127);
#104=LINE('',#503,#128);
#105=LINE('',#505,#129);
#106=LINE('',#507,#130);
#107=VECTOR('',#354,1.);
#108=VECTOR('',#357,1.);
#109=VECTOR('',#360,1.);
#110=VECTOR('',#363,1.);
#111=VECTOR('',#366,1.);
#112=VECTOR('',#369,1.);
#113=VECTOR('',#374,1.);
#114=VECTOR('',#375,1.);
#115=VECTOR('',#376,1.);
#116=VECTOR('',#381,1.);
#117=VECTOR('',#384,1.);
#118=VECTOR('',#385,1.);
#119=VECTOR('',#390,1.);
#120=VECTOR('',#393,1.);
#121=VECTOR('',#394,1.);
#122=VECTOR('',#399,1.);
#123=VECTOR('',#402,1.);
#124=VECTOR('',#403,1.);
#125=VECTOR('',#408,1.);
#126=VECTOR('',#411,1.);
#127=VECTOR('',#412,1.);
#128=VECTOR('',#417,1.);
#129=VECTOR('',#420,1.);
#130=VECTOR('',#421,1.);
#131=FACE_BOUND('',#137,.T.);
#132=FACE_BOUND('',#138,.T.);
#133=FACE_BOUND('',#151,.T.);
#134=FACE_BOUND('',#152,.T.);
#135=FACE_BOUND('',#153,.T.);
#136=FACE_BOUND('',#154,.T.);
#137=EDGE_LOOP('',(#155));
#138=EDGE_LOOP('',(#156,#157,#158,#159,#160,#161,#162,#163,#164,#165,#166,
#167));
#139=EDGE_LOOP('',(#168,#169,#170,#171));
#140=EDGE_LOOP('',(#172,#173,#174,#175));
#141=EDGE_LOOP('',(#176,#177,#178,#179));
#142=EDGE_LOOP('',(#180,#181,#182,#183));
#143=EDGE_LOOP('',(#184,#185,#186,#187));
#144=EDGE_LOOP('',(#188,#189,#190,#191));
#145=EDGE_LOOP('',(#192,#193,#194,#195));
#146=EDGE_LOOP('',(#196,#197,#198,#199));
#147=EDGE_LOOP('',(#200,#201,#202,#203));
#148=EDGE_LOOP('',(#204,#205,#206,#207));
#149=EDGE_LOOP('',(#208,#209,#210,#211));
#150=EDGE_LOOP('',(#212,#213,#214,#215));
#151=EDGE_LOOP('',(#216));
#152=EDGE_LOOP('',(#217,#218,#219,#220,#221,#222,#223,#224,#225,#226,#227,
#228));
#153=EDGE_LOOP('',(#229));
#154=EDGE_LOOP('',(#230));
#155=ORIENTED_EDGE('',*,*,#257,.F.);
#156=ORIENTED_EDGE('',*,*,#258,.F.);
#157=ORIENTED_EDGE('',*,*,#259,.T.);
#158=ORIENTED_EDGE('',*,*,#260,.T.);
#159=ORIENTED_EDGE('',*,*,#261,.T.);
#160=ORIENTED_EDGE('',*,*,#262,.T.);
#161=ORIENTED_EDGE('',*,*,#263,.T.);
#162=ORIENTED_EDGE('',*,*,#264,.T.);
#163=ORIENTED_EDGE('',*,*,#265,.T.);
#164=ORIENTED_EDGE('',*,*,#266,.T.);
#165=ORIENTED_EDGE('',*,*,#267,.T.);
#166=ORIENTED_EDGE('',*,*,#268,.T.);
#167=ORIENTED_EDGE('',*,*,#269,.T.);
#168=ORIENTED_EDGE('',*,*,#270,.F.);
#169=ORIENTED_EDGE('',*,*,#271,.T.);
#170=ORIENTED_EDGE('',*,*,#268,.F.);
#171=ORIENTED_EDGE('',*,*,#272,.T.);
#172=ORIENTED_EDGE('',*,*,#273,.F.);
#173=ORIENTED_EDGE('',*,*,#272,.F.);
#174=ORIENTED_EDGE('',*,*,#267,.F.);
#175=ORIENTED_EDGE('',*,*,#274,.F.);
#176=ORIENTED_EDGE('',*,*,#275,.F.);
#177=ORIENTED_EDGE('',*,*,#274,.T.);
#178=ORIENTED_EDGE('',*,*,#266,.F.);
#179=ORIENTED_EDGE('',*,*,#276,.T.);
#180=ORIENTED_EDGE('',*,*,#277,.F.);
#181=ORIENTED_EDGE('',*,*,#276,.F.);
#182=ORIENTED_EDGE('',*,*,#265,.F.);
#183=ORIENTED_EDGE('',*,*,#278,.F.);
#184=ORIENTED_EDGE('',*,*,#279,.F.);
#185=ORIENTED_EDGE('',*,*,#278,.T.);
#186=ORIENTED_EDGE('',*,*,#264,.F.);
#187=ORIENTED_EDGE('',*,*,#280,.T.);
#188=ORIENTED_EDGE('',*,*,#281,.F.);
#189=ORIENTED_EDGE('',*,*,#280,.F.);
#190=ORIENTED_EDGE('',*,*,#263,.F.);
#191=ORIENTED_EDGE('',*,*,#282,.F.);
#192=ORIENTED_EDGE('',*,*,#283,.F.);
#193=ORIENTED_EDGE('',*,*,#282,.T.);
#194=ORIENTED_EDGE('',*,*,#262,.F.);
#195=ORIENTED_EDGE('',*,*,#284,.T.);
#196=ORIENTED_EDGE('',*,*,#285,.F.);
#197=ORIENTED_EDGE('',*,*,#284,.F.);
#198=ORIENTED_EDGE('',*,*,#261,.F.);
#199=ORIENTED_EDGE('',*,*,#286,.F.);
#200=ORIENTED_EDGE('',*,*,#287,.F.);
#201=ORIENTED_EDGE('',*,*,#286,.T.);
#202=ORIENTED_EDGE('',*,*,#260,.F.);
#203=ORIENTED_EDGE('',*,*,#288,.T.);
#204=ORIENTED_EDGE('',*,*,#289,.F.);
#205=ORIENTED_EDGE('',*,*,#288,.F.);
#206=ORIENTED_EDGE('',*,*,#259,.F.);
#207=ORIENTED_EDGE('',*,*,#290,.F.);
#208=ORIENTED_EDGE('',*,*,#291,.T.);
#209=ORIENTED_EDGE('',*,*,#290,.T.);
#210=ORIENTED_EDGE('',*,*,#258,.T.);
#211=ORIENTED_EDGE('',*,*,#292,.T.);
#212=ORIENTED_EDGE('',*,*,#293,.F.);
#213=ORIENTED_EDGE('',*,*,#292,.F.);
#214=ORIENTED_EDGE('',*,*,#269,.F.);
#215=ORIENTED_EDGE('',*,*,#271,.F.);
#216=ORIENTED_EDGE('',*,*,#294,.F.);
#217=ORIENTED_EDGE('',*,*,#293,.T.);
#218=ORIENTED_EDGE('',*,*,#270,.T.);
#219=ORIENTED_EDGE('',*,*,#273,.T.);
#220=ORIENTED_EDGE('',*,*,#275,.T.);
#221=ORIENTED_EDGE('',*,*,#277,.T.);
#222=ORIENTED_EDGE('',*,*,#279,.T.);
#223=ORIENTED_EDGE('',*,*,#281,.T.);
#224=ORIENTED_EDGE('',*,*,#283,.T.);
#225=ORIENTED_EDGE('',*,*,#285,.T.);
#226=ORIENTED_EDGE('',*,*,#287,.T.);
#227=ORIENTED_EDGE('',*,*,#289,.T.);
#228=ORIENTED_EDGE('',*,*,#291,.F.);
#229=ORIENTED_EDGE('',*,*,#257,.T.);
#230=ORIENTED_EDGE('',*,*,#294,.T.);
#231=VERTEX_POINT('',#437);
#232=VERTEX_POINT('',#439);
#233=VERTEX_POINT('',#440);
#234=VERTEX_POINT('',#442);
#235=VERTEX_POINT('',#444);
#236=VERTEX_POINT('',#446);
#237=VERTEX_POINT('',#448);
#238=VERTEX_POINT('',#450);
#239=VERTEX_POINT('',#452);
#240=VERTEX_POINT('',#454);
#241=VERTEX_POINT('',#456);
#242=VERTEX_POINT('',#458);
#243=VERTEX_POINT('',#460);
#244=VERTEX_POINT('',#464);
#245=VERTEX_POINT('',#465);
#246=VERTEX_POINT('',#470);
#247=VERTEX_POINT('',#474);
#248=VERTEX_POINT('',#478);
#249=VERTEX_POINT('',#482);
#250=VERTEX_POINT('',#486);
#251=VERTEX_POINT('',#490);
#252=VERTEX_POINT('',#494);
#253=VERTEX_POINT('',#498);
#254=VERTEX_POINT('',#502);
#255=VERTEX_POINT('',#506);
#256=VERTEX_POINT('',#512);
#257=EDGE_CURVE('',#231,#231,#295,.T.);
#258=EDGE_CURVE('',#232,#233,#83,.T.);
#259=EDGE_CURVE('',#232,#234,#296,.T.);
#260=EDGE_CURVE('',#234,#235,#84,.T.);
#261=EDGE_CURVE('',#235,#236,#297,.T.);
#262=EDGE_CURVE('',#236,#237,#85,.T.);
#263=EDGE_CURVE('',#237,#238,#298,.T.);
#264=EDGE_CURVE('',#238,#239,#86,.T.);
#265=EDGE_CURVE('',#239,#240,#299,.T.);
#266=EDGE_CURVE('',#240,#241,#87,.T.);
#267=EDGE_CURVE('',#241,#242,#300,.T.);
#268=EDGE_CURVE('',#242,#243,#88,.T.);
#269=EDGE_CURVE('',#243,#233,#301,.T.);
#270=EDGE_CURVE('',#244,#245,#89,.T.);
#271=EDGE_CURVE('',#244,#243,#90,.T.);
#272=EDGE_CURVE('',#242,#245,#91,.T.);
#273=EDGE_CURVE('',#245,#246,#302,.T.);
#274=EDGE_CURVE('',#246,#241,#92,.T.);
#275=EDGE_CURVE('',#246,#247,#93,.T.);
#276=EDGE_CURVE('',#240,#247,#94,.T.);
#277=EDGE_CURVE('',#247,#248,#303,.T.);
#278=EDGE_CURVE('',#248,#239,#95,.T.);
#279=EDGE_CURVE('',#248,#249,#96,.T.);
#280=EDGE_CURVE('',#238,#249,#97,.T.);
#281=EDGE_CURVE('',#249,#250,#304,.T.);
#282=EDGE_CURVE('',#250,#237,#98,.T.);
#283=EDGE_CURVE('',#250,#251,#99,.T.);
#284=EDGE_CURVE('',#236,#251,#100,.T.);
#285=EDGE_CURVE('',#251,#252,#305,.T.);
#286=EDGE_CURVE('',#252,#235,#101,.T.);
#287=EDGE_CURVE('',#252,#253,#102,.T.);
#288=EDGE_CURVE('',#234,#253,#103,.T.);
#289=EDGE_CURVE('',#253,#254,#306,.T.);
#290=EDGE_CURVE('',#254,#232,#104,.T.);
#291=EDGE_CURVE('',#255,#254,#105,.T.);
#292=EDGE_CURVE('',#233,#255,#106,.T.);
#293=EDGE_CURVE('',#255,#244,#307,.T.);
#294=EDGE_CURVE('',#256,#256,#308,.T.);
#295=CIRCLE('',#321,9.19);
#296=CIRCLE('',#322,13.2500000000002);
#297=CIRCLE('',#323,13.2499999999981);
#298=CIRCLE('',#324,13.2500000000005);
#299=CIRCLE('',#325,13.2500000000006);
#300=CIRCLE('',#326,13.2500000000024);
#301=CIRCLE('',#327,13.2500000000014);
#302=CIRCLE('',#330,13.2500000000024);
#303=CIRCLE('',#333,13.2500000000006);
#304=CIRCLE('',#336,13.2500000000005);
#305=CIRCLE('',#339,13.2499999999981);
#306=CIRCLE('',#342,13.2500000000003);
#307=CIRCLE('',#345,13.2500000000013);
#308=CIRCLE('',#347,9.19);
#309=INVISIBILITY((#310));
#310=PRESENTATION_LAYER_ASSIGNMENT('112','Layer 112',(#435));
#311=PRESENTATION_LAYER_ASSIGNMENT('1','Layer 1',(#39));
#312=STYLED_ITEM('',(#314),#435);
#313=STYLED_ITEM('',(#315),#39);
#314=PRESENTATION_STYLE_ASSIGNMENT((#316));
#315=PRESENTATION_STYLE_ASSIGNMENT((#34));
#316=POINT_STYLE('',#317,POSITIVE_LENGTH_MEASURE(3.),#318);
#317=PRE_DEFINED_POINT_MARKER_SYMBOL('plus');
#318=COLOUR_RGB('Medium Maroon',0.6,0.4,0.4);
#319=COLOUR_RGB('GOLDEN_ORANGE',1.,0.65999847409781,0.);
#320=AXIS2_PLACEMENT_3D('',#434,#350,#351);
#321=AXIS2_PLACEMENT_3D('',#436,#352,#353);
#322=AXIS2_PLACEMENT_3D('',#441,#355,#356);
#323=AXIS2_PLACEMENT_3D('',#445,#358,#359);
#324=AXIS2_PLACEMENT_3D('',#449,#361,#362);
#325=AXIS2_PLACEMENT_3D('',#453,#364,#365);
#326=AXIS2_PLACEMENT_3D('',#457,#367,#368);
#327=AXIS2_PLACEMENT_3D('',#461,#370,#371);
#328=AXIS2_PLACEMENT_3D('',#462,#372,#373);
#329=AXIS2_PLACEMENT_3D('',#468,#377,#378);
#330=AXIS2_PLACEMENT_3D('',#469,#379,#380);
#331=AXIS2_PLACEMENT_3D('',#472,#382,#383);
#332=AXIS2_PLACEMENT_3D('',#476,#386,#387);
#333=AXIS2_PLACEMENT_3D('',#477,#388,#389);
#334=AXIS2_PLACEMENT_3D('',#480,#391,#392);
#335=AXIS2_PLACEMENT_3D('',#484,#395,#396);
#336=AXIS2_PLACEMENT_3D('',#485,#397,#398);
#337=AXIS2_PLACEMENT_3D('',#488,#400,#401);
#338=AXIS2_PLACEMENT_3D('',#492,#404,#405);
#339=AXIS2_PLACEMENT_3D('',#493,#406,#407);
#340=AXIS2_PLACEMENT_3D('',#496,#409,#410);
#341=AXIS2_PLACEMENT_3D('',#500,#413,#414);
#342=AXIS2_PLACEMENT_3D('',#501,#415,#416);
#343=AXIS2_PLACEMENT_3D('',#504,#418,#419);
#344=AXIS2_PLACEMENT_3D('',#508,#422,#423);
#345=AXIS2_PLACEMENT_3D('',#509,#424,#425);
#346=AXIS2_PLACEMENT_3D('',#510,#426,#427);
#347=AXIS2_PLACEMENT_3D('',#511,#428,#429);
#348=AXIS2_PLACEMENT_3D('',#513,#430,#431);
#349=AXIS2_PLACEMENT_3D('',#514,#432,#433);
#350=DIRECTION('',(0.,0.,1.));
#351=DIRECTION('',(1.,0.,0.));
#352=DIRECTION('',(5.59295039205838E-17,0.,1.));
#353=DIRECTION('',(-1.,0.,9.43810378659852E-17));
#354=DIRECTION('',(-0.866025403784438,0.500000000000001,-7.71941815139847E-17));
#355=DIRECTION('',(1.86715575912547E-19,1.92861534255998E-14,1.));
#356=DIRECTION('',(-0.0856320668673972,-0.996326828467455,1.92456113938555E-14));
#357=DIRECTION('',(0.866025403784438,0.500000000000002,0.));
#358=DIRECTION('',(-1.46893128337608E-15,1.29104107040048E-15,1.));
#359=DIRECTION('',(0.820028310491098,-0.572322959519461,1.96383789733251E-15));
#360=DIRECTION('',(5.40359270597891E-16,1.,-7.71941815139844E-17));
#361=DIRECTION('',(-1.85633251760014E-15,-1.07020890115906E-15,1.));
#362=DIRECTION('',(0.905660377358495,0.424003868947996,2.16022168706538E-15));
#363=DIRECTION('',(-0.866025403784439,0.499999999999999,0.));
#364=DIRECTION('',(2.41308089192923E-19,3.86394938616683E-16,1.));
#365=DIRECTION('',(0.0856320668673815,0.996326828467456,-3.92767579466428E-16));
#366=DIRECTION('',(-0.866025403784438,-0.500000000000002,0.));
#367=DIRECTION('',(-6.08194870347715E-16,3.51648087715923E-16,1.));
#368=DIRECTION('',(-0.820028310491115,0.572322959519437,-7.20073895688357E-16));
#369=DIRECTION('',(0.,-1.,0.));
#370=DIRECTION('',(3.07244961906675E-15,1.77474395527246E-15,1.));
#371=DIRECTION('',(-0.905660377358486,-0.424003868948014,3.53490821519765E-15));
#372=DIRECTION('',(0.,0.,1.));
#373=DIRECTION('',(0.,-1.,0.));
#374=DIRECTION('',(0.,1.,0.));
#375=DIRECTION('',(0.,0.,1.));
#376=DIRECTION('',(0.,0.,-1.));
#377=DIRECTION('',(-1.,0.,0.));
#378=DIRECTION('',(0.,-1.,0.));
#379=DIRECTION('',(0.,0.,-1.));
#380=DIRECTION('',(-0.905660377358484,0.424003868948018,0.));
#381=DIRECTION('',(0.,0.,1.));
#382=DIRECTION('',(-3.01996698510298E-16,1.74357875179298E-16,1.));
#383=DIRECTION('',(-0.820028310491115,0.572322959519437,-3.47434857591431E-16));
#384=DIRECTION('',(0.866025403784438,0.500000000000002,0.));
#385=DIRECTION('',(0.,0.,-1.));
#386=DIRECTION('',(-0.500000000000002,0.866025403784438,0.));
#387=DIRECTION('',(-0.866025403784438,-0.500000000000002,0.));
#388=DIRECTION('',(0.,0.,-1.));
#389=DIRECTION('',(-0.0856320668673845,0.996326828467456,0.));
#390=DIRECTION('',(0.,0.,1.));
#391=DIRECTION('',(-2.65007960347684E-31,1.74357875179265E-16,1.));
#392=DIRECTION('',(0.0856320668673815,0.996326828467456,-1.73717428795682E-16));
#393=DIRECTION('',(0.866025403784439,-0.499999999999999,0.));
#394=DIRECTION('',(0.,0.,-1.));
#395=DIRECTION('',(0.499999999999999,0.866025403784439,0.));
#396=DIRECTION('',(-0.866025403784439,0.499999999999999,0.));
#397=DIRECTION('',(0.,0.,-1.));
#398=DIRECTION('',(0.82002831049111,0.572322959519445,0.));
#399=DIRECTION('',(0.,0.,1.));
#400=DIRECTION('',(-9.36189765381688E-16,-5.40509413055679E-16,1.));
#401=DIRECTION('',(0.905660377358495,0.424003868947996,1.07704805853316E-15));
#402=DIRECTION('',(-5.40359270597891E-16,-1.,0.));
#403=DIRECTION('',(0.,0.,-1.));
#404=DIRECTION('',(1.,-5.40359270597891E-16,0.));
#405=DIRECTION('',(5.39499001028787E-16,1.,0.));
#406=DIRECTION('',(0.,0.,-1.));
#407=DIRECTION('',(0.905660377358496,-0.424003868947994,0.));
#408=DIRECTION('',(0.,0.,1.));
#409=DIRECTION('',(1.08718811463671E-15,-6.27688350645269E-16,1.));
#410=DIRECTION('',(0.820028310491098,-0.572322959519461,-1.25076548732874E-15));
#411=DIRECTION('',(-0.866025403784438,-0.500000000000002,0.));
#412=DIRECTION('',(0.,0.,-1.));
#413=DIRECTION('',(0.500000000000002,-0.866025403784438,0.));
#414=DIRECTION('',(0.866025403784438,0.500000000000002,0.));
#415=DIRECTION('',(0.,0.,-1.));
#416=DIRECTION('',(0.085632066867382,-0.996326828467456,0.));
#417=DIRECTION('',(0.,0.,1.));
#418=DIRECTION('',(5.46039657832669E-30,7.14867288234898E-16,1.));
#419=DIRECTION('',(-0.0856320668673972,-0.996326828467455,7.12241458062206E-16));
#420=DIRECTION('',(0.866025403784438,-0.500000000000001,0.));
#421=DIRECTION('',(0.,0.,-1.));
#422=DIRECTION('',(-0.500000000000001,-0.866025403784438,0.));
#423=DIRECTION('',(0.866025403784438,-0.500000000000001,0.));
#424=DIRECTION('',(0.,0.,-1.));
#425=DIRECTION('',(-0.820028310491109,-0.572322959519446,0.));
#426=DIRECTION('',(1.55528299732786E-15,8.97943057173294E-16,1.));
#427=DIRECTION('',(-0.905660377358486,-0.424003868948014,1.78928951659567E-15));
#428=DIRECTION('',(0.,0.,-1.));
#429=DIRECTION('',(-1.,1.34198038215698E-15,0.));
#430=DIRECTION('',(0.,0.,-1.));
#431=DIRECTION('',(-1.,0.,0.));
#432=DIRECTION('',(5.23745601833768E-17,2.168404344971E-17,-1.));
#433=DIRECTION('',(-1.,1.35507924325928E-15,-9.4381037865985E-17));
#434=CARTESIAN_POINT('',(0.,0.,0.));
#435=CARTESIAN_POINT('',(0.,0.,0.));
#436=CARTESIAN_POINT('',(-5.20417042793042E-15,1.23327997120226E-14,5.));
#437=CARTESIAN_POINT('',(-9.19,1.23327997120226E-14,5.));
#438=CARTESIAN_POINT('',(-1.13462488599291,-13.2013304771938,5.));
#439=CARTESIAN_POINT('',(-1.13462488599291,-13.2013304771938,5.));
#440=CARTESIAN_POINT('',(-10.8653751140071,-7.58327921363272,5.));
#441=CARTESIAN_POINT('',(-2.60208521396521E-14,2.60398256776706E-13,4.99999999999975));
#442=CARTESIAN_POINT('',(1.13462488599289,-13.2013304771938,5.));
#443=CARTESIAN_POINT('',(1.13462488599289,-13.2013304771938,5.));
#444=CARTESIAN_POINT('',(10.8653751140071,-7.58327921363271,5.));
#445=CARTESIAN_POINT('',(1.61329283265843E-12,-9.17478983411546E-13,4.99999999999997));
#446=CARTESIAN_POINT('',(12.,-5.61805126356105,5.));
#447=CARTESIAN_POINT('',(12.,-5.61805126356105,5.));
#448=CARTESIAN_POINT('',(12.,5.61805126356106,5.));
#449=CARTESIAN_POINT('',(-4.21537804662364E-13,-2.21854869544846E-13,4.99999999999997));
#450=CARTESIAN_POINT('',(10.8653751140071,7.58327921363276,5.));
#451=CARTESIAN_POINT('',(10.8653751140071,7.58327921363277,5.));
#452=CARTESIAN_POINT('',(1.13462488599286,13.2013304771938,5.));
#453=CARTESIAN_POINT('',(2.60208521396521E-15,-6.31249609875373E-13,5.));
#454=CARTESIAN_POINT('',(-1.13462488599289,13.2013304771938,5.));
#455=CARTESIAN_POINT('',(-1.13462488599289,13.2013304771938,5.));
#456=CARTESIAN_POINT('',(-10.8653751140072,7.58327921363273,5.));
#457=CARTESIAN_POINT('',(2.05391259555654E-12,-1.17074861090416E-12,5.00000000000001));
#458=CARTESIAN_POINT('',(-12.,5.61805126356107,5.));
#459=CARTESIAN_POINT('',(-12.,5.61805126356107,5.));
#460=CARTESIAN_POINT('',(-12.,-5.61805126356104,5.));
#461=CARTESIAN_POINT('',(1.19522447494802E-12,7.30508318766421E-13,4.99999999999995));
#462=CARTESIAN_POINT('',(-12.5999990850687,13.9125004498055,5.));
#463=CARTESIAN_POINT('',(-12.,-5.61805126356104,0.));
#464=CARTESIAN_POINT('',(-12.,-5.61805126356104,0.));
#465=CARTESIAN_POINT('',(-12.,5.61805126356107,0.));
#466=CARTESIAN_POINT('',(-12.,-5.61805126356104,0.));
#467=CARTESIAN_POINT('',(-12.,5.61805126356107,5.));
#468=CARTESIAN_POINT('',(-12.,5.61805126356107,0.));
#469=CARTESIAN_POINT('',(2.05911676598447E-12,-1.17682014307008E-12,0.));
#470=CARTESIAN_POINT('',(-10.8653751140072,7.58327921363273,0.));
#471=CARTESIAN_POINT('',(-10.8653751140072,7.58327921363273,0.));
#472=CARTESIAN_POINT('',(2.05477995729453E-12,-1.17118229177315E-12,5.20417042793042E-15));
#473=CARTESIAN_POINT('',(-10.8653751140072,7.58327921363273,0.));
#474=CARTESIAN_POINT('',(-1.13462488599289,13.2013304771938,0.));
#475=CARTESIAN_POINT('',(-1.13462488599289,13.2013304771938,5.));
#476=CARTESIAN_POINT('',(-1.13462488599289,13.2013304771938,0.));
#477=CARTESIAN_POINT('',(2.60208521396521E-15,-6.17371822067558E-13,0.));
#478=CARTESIAN_POINT('',(1.13462488599286,13.2013304771938,0.));
#479=CARTESIAN_POINT('',(1.13462488599286,13.2013304771938,0.));
#480=CARTESIAN_POINT('',(2.60208521396521E-15,-6.31683290744367E-13,3.03576608295941E-15));
#481=CARTESIAN_POINT('',(1.13462488599286,13.2013304771938,0.));
#482=CARTESIAN_POINT('',(10.8653751140071,7.58327921363276,0.));
#483=CARTESIAN_POINT('',(10.8653751140071,7.58327921363276,5.));
#484=CARTESIAN_POINT('',(10.8653751140071,7.58327921363277,0.));
#485=CARTESIAN_POINT('',(-4.11996825544492E-13,-2.19252784330881E-13,0.));
#486=CARTESIAN_POINT('',(12.,5.61805126356106,0.));
#487=CARTESIAN_POINT('',(12.,5.61805126356106,0.));
#488=CARTESIAN_POINT('',(-4.18935719448399E-13,-2.20499616829239E-13,-1.38777878078145E-14));
#489=CARTESIAN_POINT('',(12.,5.61805126356106,0.));
#490=CARTESIAN_POINT('',(12.,-5.61805126356105,0.));
#491=CARTESIAN_POINT('',(12.,-5.61805126356105,5.));
#492=CARTESIAN_POINT('',(12.,-5.61805126356105,0.));
#493=CARTESIAN_POINT('',(1.68354913343549E-12,-9.58244985097001E-13,0.));
#494=CARTESIAN_POINT('',(10.8653751140071,-7.58327921363271,0.));
#495=CARTESIAN_POINT('',(10.8653751140071,-7.58327921363271,0.));
#496=CARTESIAN_POINT('',(1.61069074744447E-12,-9.15906890261442E-13,1.73472347597681E-14));
#497=CARTESIAN_POINT('',(10.8653751140071,-7.58327921363271,0.));
#498=CARTESIAN_POINT('',(1.13462488599289,-13.2013304771938,0.));
#499=CARTESIAN_POINT('',(1.13462488599289,-13.2013304771938,5.));
#500=CARTESIAN_POINT('',(1.13462488599289,-13.2013304771938,0.));
#501=CARTESIAN_POINT('',(-2.60208521396521E-14,2.6907187415659E-13,0.));
#502=CARTESIAN_POINT('',(-1.13462488599291,-13.2013304771938,0.));
#503=CARTESIAN_POINT('',(-1.13462488599291,-13.2013304771938,0.));
#504=CARTESIAN_POINT('',(-2.60208521396521E-14,2.58609323192105E-13,-9.54097911787244E-15));
#505=CARTESIAN_POINT('',(-10.8653751140071,-7.58327921363273,0.));
#506=CARTESIAN_POINT('',(-10.8653751140071,-7.58327921363272,0.));
#507=CARTESIAN_POINT('',(-10.8653751140071,-7.58327921363272,5.));
#508=CARTESIAN_POINT('',(-10.8653751140071,-7.58327921363273,0.));
#509=CARTESIAN_POINT('',(1.13971332371676E-12,6.95813849246885E-13,0.));
#510=CARTESIAN_POINT('',(1.19002030452009E-12,7.25656514044548E-13,-2.29850860566927E-14));
#511=CARTESIAN_POINT('',(0.,0.,0.));
#512=CARTESIAN_POINT('',(-9.19,1.23327997120226E-14,0.));
#513=CARTESIAN_POINT('',(12.5999990850687,-13.9124993147561,0.));
#514=CARTESIAN_POINT('',(6.93889390390723E-15,-1.62630325872826E-16,5.));
#515=MECHANICAL_DESIGN_GEOMETRIC_PRESENTATION_REPRESENTATION('',(#312,#313),
#516);
#516=(
GEOMETRIC_REPRESENTATION_CONTEXT(3)
GLOBAL_UNCERTAINTY_ASSIGNED_CONTEXT((#517))
GLOBAL_UNIT_ASSIGNED_CONTEXT((#523,#519,#518))
REPRESENTATION_CONTEXT('100740368ugm000_a','TOP_LEVEL_ASSEMBLY_PART')
);
#517=UNCERTAINTY_MEASURE_WITH_UNIT(LENGTH_MEASURE(2.E-5),#523,
'DISTANCE_ACCURACY_VALUE','Maximum Tolerance applied to model');
#518=(
NAMED_UNIT(*)
SI_UNIT($,.STERADIAN.)
SOLID_ANGLE_UNIT()
);
#519=(
CONVERSION_BASED_UNIT('DEGREE',#521)
NAMED_UNIT(#520)
PLANE_ANGLE_UNIT()
);
#520=DIMENSIONAL_EXPONENTS(0.,0.,0.,0.,0.,0.,0.);
#521=PLANE_ANGLE_MEASURE_WITH_UNIT(PLANE_ANGLE_MEASURE(0.0174532925),#522);
#522=(
NAMED_UNIT(*)
PLANE_ANGLE_UNIT()
SI_UNIT($,.RADIAN.)
);
#523=(
LENGTH_UNIT()
NAMED_UNIT(*)
SI_UNIT(.MILLI.,.METRE.)
);
ENDSEC;
END-ISO-10303-21;
